  0
SECTION
  2
HEADER
  9
$ACADVER
  1
AC1015
  9
$ACADMAINTVER
 70
     6
  9
$DWGCODEPAGE
  3
ANSI_1254
  9
$INSBASE
 10
0.0
 20
0.0
 30
0.0
  9
$EXTMIN
 10
0.0
 20
0.0
 30
0.0
  9
$EXTMAX
 10
279.4
 20
215.9
 30
0.0
  9
$LIMMIN
 10
0.0
 20
0.0
  9
$LIMMAX
 10
279.4
 20
215.9
  9
$ORTHOMODE
 70
     0
  9
$REGENMODE
 70
     1
  9
$FILLMODE
 70
     1
  9
$QTEXTMODE
 70
     0
  9
$MIRRTEXT
 70
     1
  9
$LTSCALE
 40
1.0
  9
$ATTMODE
 70
     1
  9
$TEXTSIZE
 40
3.5
  9
$TRACEWID
 40
1.0
  9
$TEXTSTYLE
  7
Standard
  9
$CLAYER
  8
0
  9
$CELTYPE
  6
ByLayer
  9
$CECOLOR
 62
   256
  9
$CELTSCALE
 40
1.0
  9
$DISPSILH
 70
     0
  9
$DIMSCALE
 40
1.0
  9
$DIMASZ
 40
3.5
  9
$DIMEXO
 40
1.0
  9
$DIMDLI
 40
3.75
  9
$DIMRND
 40
0.0
  9
$DIMDLE
 40
0.0
  9
$DIMEXE
 40
1.0
  9
$DIMTP
 40
0.0
  9
$DIMTM
 40
0.0
  9
$DIMTXT
 40
3.5
  9
$DIMCEN
 40
2.5
  9
$DIMTSZ
 40
0.0
  9
$DIMTOL
 70
     0
  9
$DIMLIM
 70
     0
  9
$DIMTIH
 70
     1
  9
$DIMTOH
 70
     1
  9
$DIMSE1
 70
     0
  9
$DIMSE2
 70
     0
  9
$DIMTAD
 70
     1
  9
$DIMZIN
 70
     0
  9
$DIMBLK
  1

  9
$DIMASO
 70
     1
  9
$DIMSHO
 70
     1
  9
$DIMPOST
  1

  9
$DIMAPOST
  1

  9
$DIMALT
 70
     0
  9
$DIMALTD
 70
     3
  9
$DIMALTF
 40
0.0393700787
  9
$DIMLFAC
 40
1.0
  9
$DIMTOFL
 70
     1
  9
$DIMTVP
 40
0.0
  9
$DIMTIX
 70
     0
  9
$DIMSOXD
 70
     0
  9
$DIMSAH
 70
     0
  9
$DIMBLK1
  1

  9
$DIMBLK2
  1

  9
$DIMSTYLE
  2
ISO-25
  9
$DIMCLRD
 70
     0
  9
$DIMCLRE
 70
     0
  9
$DIMCLRT
 70
     0
  9
$DIMTFAC
 40
1.0
  9
$DIMGAP
 40
1.524
  9
$DIMJUST
 70
     0
  9
$DIMSD1
 70
     0
  9
$DIMSD2
 70
     0
  9
$DIMTOLJ
 70
     0
  9
$DIMTZIN
 70
     0
  9
$DIMALTZ
 70
     0
  9
$DIMALTTZ
 70
     0
  9
$DIMUPT
 70
     0
  9
$DIMDEC
 70
     2
  9
$DIMTDEC
 70
     2
  9
$DIMALTU
 70
     2
  9
$DIMALTTD
 70
     3
  9
$DIMTXSTY
  7
Standard
  9
$DIMAUNIT
 70
     0
  9
$DIMADEC
 70
     2
  9
$DIMALTRND
 40
0.0
  9
$DIMAZIN
 70
     0
  9
$DIMDSEP
 70
    44
  9
$DIMATFIT
 70
     3
  9
$DIMFRAC
 70
     0
  9
$DIMLDRBLK
  1

  9
$DIMLUNIT
 70
     2
  9
$DIMLWD
 70
    -2
  9
$DIMLWE
 70
    -2
  9
$DIMTMOVE
 70
     0
  9
$LUNITS
 70
     2
  9
$LUPREC
 70
     2
  9
$SKETCHINC
 40
1.0
  9
$FILLETRAD
 40
10.0
  9
$AUNITS
 70
     0
  9
$AUPREC
 70
     2
  9
$MENU
  1
.
  9
$ELEVATION
 40
0.0
  9
$PELEVATION
 40
0.0
  9
$THICKNESS
 40
0.0
  9
$LIMCHECK
 70
     0
  9
$CHAMFERA
 40
0.0
  9
$CHAMFERB
 40
0.0
  9
$CHAMFERC
 40
0.0
  9
$CHAMFERD
 40
0.0
  9
$SKPOLY
 70
     0
  9
$TDCREATE
 40
2458985.636177442
  9
$TDUCREATE
 40
2458985.511177442
  9
$TDUPDATE
 40
2458985.63617772
  9
$TDUUPDATE
 40
2458985.51117772
  9
$TDINDWG
 40
0.0000000116
  9
$TDUSRTIMER
 40
0.0000000116
  9
$USRTIMER
 70
     1
  9
$ANGBASE
 50
0.0
  9
$ANGDIR
 70
     0
  9
$PDMODE
 70
     0
  9
$PDSIZE
 40
-1.0
  9
$PLINEWID
 40
0.0
  9
$SPLFRAME
 70
     0
  9
$SPLINETYPE
 70
     6
  9
$SPLINESEGS
 70
     8
  9
$HANDSEED
  5
CC
  9
$SURFTAB1
 70
     6
  9
$SURFTAB2
 70
     6
  9
$SURFTYPE
 70
     6
  9
$SURFU
 70
     6
  9
$SURFV
 70
     6
  9
$UCSBASE
  2

  9
$UCSNAME
  2

  9
$UCSORG
 10
0.0
 20
0.0
 30
0.0
  9
$UCSXDIR
 10
1.0
 20
0.0
 30
0.0
  9
$UCSYDIR
 10
0.0
 20
1.0
 30
0.0
  9
$UCSORTHOREF
  2

  9
$UCSORTHOVIEW
 70
     0
  9
$UCSORGTOP
 10
0.0
 20
0.0
 30
0.0
  9
$UCSORGBOTTOM
 10
0.0
 20
0.0
 30
0.0
  9
$UCSORGLEFT
 10
0.0
 20
0.0
 30
0.0
  9
$UCSORGRIGHT
 10
0.0
 20
0.0
 30
0.0
  9
$UCSORGFRONT
 10
0.0
 20
0.0
 30
0.0
  9
$UCSORGBACK
 10
0.0
 20
0.0
 30
0.0
  9
$PUCSBASE
  2

  9
$PUCSNAME
  2

  9
$PUCSORG
 10
0.0
 20
0.0
 30
0.0
  9
$PUCSXDIR
 10
1.0
 20
0.0
 30
0.0
  9
$PUCSYDIR
 10
0.0
 20
1.0
 30
0.0
  9
$PUCSORTHOREF
  2

  9
$PUCSORTHOVIEW
 70
     0
  9
$PUCSORGTOP
 10
0.0
 20
0.0
 30
0.0
  9
$PUCSORGBOTTOM
 10
0.0
 20
0.0
 30
0.0
  9
$PUCSORGLEFT
 10
0.0
 20
0.0
 30
0.0
  9
$PUCSORGRIGHT
 10
0.0
 20
0.0
 30
0.0
  9
$PUCSORGFRONT
 10
0.0
 20
0.0
 30
0.0
  9
$PUCSORGBACK
 10
0.0
 20
0.0
 30
0.0
  9
$USERI1
 70
     0
  9
$USERI2
 70
     0
  9
$USERI3
 70
     0
  9
$USERI4
 70
     0
  9
$USERI5
 70
     0
  9
$USERR1
 40
0.0
  9
$USERR2
 40
0.0
  9
$USERR3
 40
0.0
  9
$USERR4
 40
0.0
  9
$USERR5
 40
0.0
  9
$WORLDVIEW
 70
     1
  9
$SHADEDGE
 70
     3
  9
$SHADEDIF
 70
    70
  9
$TILEMODE
 70
     1
  9
$MAXACTVP
 70
    64
  9
$PINSBASE
 10
0.0
 20
0.0
 30
0.0
  9
$PLIMCHECK
 70
     0
  9
$PEXTMIN
 10
1.0000000000E+20
 20
1.0000000000E+20
 30
1.0000000000E+20
  9
$PEXTMAX
 10
-1.0000000000E+20
 20
-1.0000000000E+20
 30
-1.0000000000E+20
  9
$PLIMMIN
 10
0.0
 20
0.0
  9
$PLIMMAX
 10
420.0
 20
297.0
  9
$UNITMODE
 70
     0
  9
$VISRETAIN
 70
     1
  9
$PLINEGEN
 70
     0
  9
$PSLTSCALE
 70
     1
  9
$TREEDEPTH
 70
  3020
  9
$CMLSTYLE
  2
Standard
  9
$CMLJUST
 70
     0
  9
$CMLSCALE
 40
20.0
  9
$PROXYGRAPHICS
 70
     1
  9
$MEASUREMENT
 70
     1
  9
$CELWEIGHT
370
    -1
  9
$ENDCAPS
280
     0
  9
$JOINSTYLE
280
     0
  9
$LWDISPLAY
290
     1
  9
$INSUNITS
 70
     4
  9
$HYPERLINKBASE
  1

  9
$STYLESHEET
  1

  9
$XEDIT
290
     1
  9
$CEPSNTYPE
380
     0
  9
$PSTYLEMODE
290
     1
  9
$FINGERPRINTGUID
  2
{555e9991-0e52-43ff-8783-21de21c4c551}
  9
$VERSIONGUID
  2
{FAEB1C32-E019-11D5-929B-00C0DF256EC4}
  9
$EXTNAMES
290
     1
  9
$PSVPSCALE
 40
0.0
  9
$OLESTARTUP
290
     0
  0
ENDSEC
  0
SECTION
  2
CLASSES
  0
CLASS
  1
ACDBDICTIONARYWDFLT
  2
AcDbDictionaryWithDefault
  3
ObjectDBX Classes
 90
        0
280
     0
281
     0
  0
CLASS
  1
VISUALSTYLE
  2
AcDbVisualStyle
  3
ObjectDBX Classes
 90
     4095
280
     0
281
     0
  0
CLASS
  1
MATERIAL
  2
AcDbMaterial
  3
ObjectDBX Classes
 90
     1153
280
     0
281
     0
  0
CLASS
  1
SCALE
  2
AcDbScale
  3
ObjectDBX Classes
 90
     1153
280
     0
281
     0
  0
CLASS
  1
TABLESTYLE
  2
AcDbTableStyle
  3
ObjectDBX Classes
 90
     4095
280
     0
281
     0
  0
CLASS
  1
MLEADERSTYLE
  2
AcDbMLeaderStyle
  3
ACDB_MLEADERSTYLE_CLASS
 90
     4095
280
     0
281
     0
  0
CLASS
  1
SUN
  2
AcDbSun
  3
SCENEOE
 90
     1153
280
     0
281
     0
  0
CLASS
  1
ACDBPLACEHOLDER
  2
AcDbPlaceHolder
  3
ObjectDBX Classes
 90
        0
280
     0
281
     0
  0
CLASS
  1
LAYOUT
  2
AcDbLayout
  3
ObjectDBX Classes
 90
        0
280
     0
281
     0
  0
ENDSEC
  0
SECTION
  2
TABLES
  0
TABLE
  2
VPORT
  5
8
330
0
100
AcDbSymbolTable
 70
     1
  0
VPORT
  5
29
330
8
100
AcDbSymbolTableRecord
100
AcDbViewportTableRecord
  2
*Active
 70
     0
 10
0.0
 20
0.0
 11
1.0
 21
1.0
 12
139.7
 22
107.95
 13
0.0
 23
0.0
 14
10.0
 24
10.0
 15
10.0
 25
10.0
 16
0.0
 26
0.0
 36
1.0
 17
0.0
 27
0.0
 37
0.0
 40
215.9
 41
1.2941176471
 42
50.0
 43
0.0
 44
0.0
 50
0.0
 51
0.0
 71
     0
 72
  2000
 73
     1
 74
     3
 75
     0
 76
     0
 77
     0
 78
     0
281
     0
 65
     1
110
0.0
120
0.0
130
0.0
111
1.0
121
0.0
131
0.0
112
0.0
122
1.0
132
0.0
 79
     0
146
0.0
  0
ENDTAB
  0
TABLE
  2
LTYPE
  5
5
330
0
100
AcDbSymbolTable
 70
     6
  0
LTYPE
  5
14
330
5
100
AcDbSymbolTableRecord
100
AcDbLinetypeTableRecord
  2
ByBlock
 70
     0
  3

 72
    65
 73
     0
 40
0.0
  0
LTYPE
  5
15
330
5
100
AcDbSymbolTableRecord
100
AcDbLinetypeTableRecord
  2
ByLayer
 70
     0
  3

 72
    65
 73
     0
 40
0.0
  0
LTYPE
  5
16
330
5
100
AcDbSymbolTableRecord
100
AcDbLinetypeTableRecord
  2
Continuous
 70
     0
  3
Solid line
 72
    65
 73
     0
 40
0.0
  0
LTYPE
  5
6E
330
5
100
AcDbSymbolTableRecord
100
AcDbLinetypeTableRecord
  2
HIDDEN
 70
     0
  3
Hidden __ __ __ __ __ __ __ __ __ __ __ __ __ __
 72
    65
 73
     2
 40
1.905
 49
1.27
 74
     0
 49
-0.635
 74
     0
  0
LTYPE
  5
6F
330
5
100
AcDbSymbolTableRecord
100
AcDbLinetypeTableRecord
  2
PHANTOM
 70
     0
  3
Phantom ______  __  __  ______  __  __  ______
 72
    65
 73
     6
 40
12.7
 49
6.35
 74
     0
 49
-1.27
 74
     0
 49
1.27
 74
     0
 49
-1.27
 74
     0
 49
1.27
 74
     0
 49
-1.27
 74
     0
  0
LTYPE
  5
70
330
5
100
AcDbSymbolTableRecord
100
AcDbLinetypeTableRecord
  2
CENTER
 70
     0
  3
Center ____ _ ____ _ ____ _ ____ _ ____ _ ____
 72
    65
 73
     4
 40
10.16
 49
6.35
 74
     0
 49
-1.27
 74
     0
 49
1.27
 74
     0
 49
-1.27
 74
     0
  0
LTYPE
  5
71
330
5
100
AcDbSymbolTableRecord
100
AcDbLinetypeTableRecord
  2
CENTERX2
 70
     0
  3
Center (2x) ________  __  ________  __  _____
 72
    65
 73
     4
 40
20.32
 49
12.7
 74
     0
 49
-2.54
 74
     0
 49
2.54
 74
     0
 49
-2.54
 74
     0
  0
LTYPE
  5
72
330
5
100
AcDbSymbolTableRecord
100
AcDbLinetypeTableRecord
  2
DOT2
 70
     0
  3
Dot (.5x) ........................................
 72
    65
 73
     2
 40
0.635
 49
0.0
 74
     0
 49
-0.635
 74
     0
  0
ENDTAB
  0
TABLE
  2
LAYER
  5
2
330
0
100
AcDbSymbolTable
 70
    17
  0
LAYER
  5
10
330
2
100
AcDbSymbolTableRecord
100
AcDbLayerTableRecord
  2
0
 70
     0
 62
     7
  6
Continuous
370
    -3
390
F
  0
LAYER
  5
73
330
2
100
AcDbSymbolTableRecord
100
AcDbLayerTableRecord
  2
FORMAT
 70
     0
 62
     7
  6
Continuous
370
    -3
390
F
  0
LAYER
  5
74
330
2
100
AcDbSymbolTableRecord
100
AcDbLayerTableRecord
  2
YARDIMCI_GEOMETRI
 70
     0
 62
    -6
  6
Continuous
290
     0
370
    -3
390
F
  0
LAYER
  5
75
330
2
100
AcDbSymbolTableRecord
100
AcDbLayerTableRecord
  2
SAYFA_CERCEVESI
 70
     0
 62
     7
  6
Continuous
370
    25
390
F
  0
LAYER
  5
76
330
2
100
AcDbSymbolTableRecord
100
AcDbLayerTableRecord
  2
ANTET
 70
     0
 62
     7
  6
Continuous
370
    -3
390
F
  0
LAYER
  5
77
330
2
100
AcDbSymbolTableRecord
100
AcDbLayerTableRecord
  2
OLCU
 70
     0
 62
   150
  6
Continuous
370
    -3
390
F
  0
LAYER
  5
78
330
2
100
AcDbSymbolTableRecord
100
AcDbLayerTableRecord
  2
METIN
 70
     0
 62
    96
  6
Continuous
370
    -3
390
F
  0
LAYER
  5
79
330
2
100
AcDbSymbolTableRecord
100
AcDbLayerTableRecord
  2
BALON
 70
     0
 62
     5
  6
Continuous
370
    -3
390
F
  0
LAYER
  5
7A
330
2
100
AcDbSymbolTableRecord
100
AcDbLayerTableRecord
  2
VURGU
 70
     0
 62
     7
  6
Continuous
370
    -3
390
F
  0
LAYER
  5
7B
330
2
100
AcDbSymbolTableRecord
100
AcDbLayerTableRecord
  2
SILIK
 70
     0
 62
     7
  6
Continuous
370
    -3
390
F
  0
LAYER
  5
7C
330
2
100
AcDbSymbolTableRecord
100
AcDbLayerTableRecord
  2
MODEL
 70
     0
 62
     7
  6
Continuous
370
    -3
390
F
  0
LAYER
  5
7D
330
2
100
AcDbSymbolTableRecord
100
AcDbLayerTableRecord
  2
DETAYLANDıRMA
 70
     0
 62
   190
  6
Continuous
370
    -3
390
F
  0
LAYER
  5
7E
330
2
100
AcDbSymbolTableRecord
100
AcDbLayerTableRecord
  2
TOLERANS
 70
     0
 62
   230
  6
Continuous
370
    -3
390
F
  0
LAYER
  5
7F
330
2
100
AcDbSymbolTableRecord
100
AcDbLayerTableRecord
  2
MERKEZ_CIZGILERI
 70
     0
 62
    30
  6
Continuous
370
    -3
390
F
  0
LAYER
  5
80
330
2
100
AcDbSymbolTableRecord
100
AcDbLayerTableRecord
  2
KESIT-DETAY_CIZGILERI
 70
     0
 62
     7
  6
Continuous
370
    -3
390
F
  0
LAYER
  5
81
330
2
100
AcDbSymbolTableRecord
100
AcDbLayerTableRecord
  2
\U+041E\U+0421\U+0415\U+0412\U+042B\U+0415
 70
     0
 62
     7
  6
Continuous
370
    -3
390
F
  0
LAYER
  5
82
330
2
100
AcDbSymbolTableRecord
100
AcDbLayerTableRecord
  2
\U+0412\U+041E\U+0414\U+042F\U+041D\U+042B\U+0415_\U+0417\U+041D\U+0410\U+041A\U+0418
 70
     0
 62
    11
  6
Continuous
370
    -3
390
F
  0
ENDTAB
  0
TABLE
  2
STYLE
  5
3
330
0
100
AcDbSymbolTable
 70
     1
  0
STYLE
  5
11
330
3
100
AcDbSymbolTableRecord
100
AcDbTextStyleTableRecord
  2
Standard
 70
     0
 40
0.0
 41
1.0
 50
0.0
 71
     0
 42
3.5
  3
txt
  4

  0
ENDTAB
  0
TABLE
  2
VIEW
  5
6
330
0
100
AcDbSymbolTable
 70
     0
  0
ENDTAB
  0
TABLE
  2
UCS
  5
7
330
0
100
AcDbSymbolTable
 70
     0
  0
ENDTAB
  0
TABLE
  2
APPID
  5
9
330
0
100
AcDbSymbolTable
 70
     1
  0
APPID
  5
12
330
9
100
AcDbSymbolTableRecord
100
AcDbRegAppTableRecord
  2
ACAD
 70
     0
  0
ENDTAB
  0
TABLE
  2
DIMSTYLE
  5
A
330
0
100
AcDbSymbolTable
 70
     1
100
AcDbDimStyleTable
  0
DIMSTYLE
105
27
330
A
100
AcDbSymbolTableRecord
100
AcDbDimStyleTableRecord
  2
ISO-25
 70
     0
 41
2.5
 42
0.625
 43
3.75
 44
1.25
 73
     0
 74
     0
 77
     1
 78
     8
140
2.5
141
2.5
143
0.0393700787
147
0.625
171
     3
172
     1
178
     0
271
     2
272
     2
274
     3
278
    44
283
     0
284
     8
340
11
  0
ENDTAB
  0
TABLE
  2
BLOCK_RECORD
  5
1
330
0
100
AcDbSymbolTable
 70
     2
  0
BLOCK_RECORD
  5
1F
330
1
100
AcDbSymbolTableRecord
100
AcDbBlockTableRecord
  2
*Model_Space
340
22
  0
BLOCK_RECORD
  5
1B
330
1
100
AcDbSymbolTableRecord
100
AcDbBlockTableRecord
  2
*Paper_Space
340
1E
  0
BLOCK_RECORD
  5
23
330
1
100
AcDbSymbolTableRecord
100
AcDbBlockTableRecord
  2
*Paper_Space0
340
26
  0
BLOCK_RECORD
  5
87
330
1
100
AcDbSymbolTableRecord
100
AcDbBlockTableRecord
  2
SW_CENTERMARKSYMBOL_0
340
0
102
{BLKREFS
331
92
102
}
  0
ENDTAB
  0
ENDSEC
  0
SECTION
  2
BLOCKS
  0
BLOCK
  5
20
330
1F
100
AcDbEntity
  8
0
100
AcDbBlockBegin
  2
*Model_Space
 70
     0
 10
0.0
 20
0.0
 30
0.0
  3
*Model_Space
  1

  0
ENDBLK
  5
21
330
1F
100
AcDbEntity
  8
0
100
AcDbBlockEnd
  0
BLOCK
  5
1C
330
1B
100
AcDbEntity
 67
     1
  8
0
100
AcDbBlockBegin
  2
*Paper_Space
 70
     0
 10
0.0
 20
0.0
 30
0.0
  3
*Paper_Space
  1

  0
ENDBLK
  5
1D
330
1B
100
AcDbEntity
 67
     1
  8
0
100
AcDbBlockEnd
  0
BLOCK
  5
24
330
23
100
AcDbEntity
  8
0
100
AcDbBlockBegin
  2
*Paper_Space0
 70
     0
 10
0.0
 20
0.0
 30
0.0
  3
*Paper_Space0
  1

  0
ENDBLK
  5
25
330
23
100
AcDbEntity
  8
0
100
AcDbBlockEnd
  0
BLOCK
  5
88
330
87
100
AcDbEntity
  8
0
100
AcDbBlockBegin
  2
SW_CENTERMARKSYMBOL_0
 70
     0
 10
0.0
 20
0.0
 30
0.0
  3
SW_CENTERMARKSYMBOL_0
  1

  0
LINE
  5
8A
330
87
100
AcDbEntity
  8
FORMAT
 62
     0
100
AcDbLine
 10
0.0
 20
0.0
 30
0.0
 11
0.0
 21
2.5
 31
0.0
  0
LINE
  5
8B
330
87
100
AcDbEntity
  8
FORMAT
 62
     0
100
AcDbLine
 10
0.0
 20
0.0
 30
0.0
 11
-2.5
 21
0.0
 31
0.0
  0
LINE
  5
8C
330
87
100
AcDbEntity
  8
FORMAT
 62
     0
100
AcDbLine
 10
0.0
 20
0.0
 30
0.0
 11
0.0
 21
-2.5
 31
0.0
  0
LINE
  5
8D
330
87
100
AcDbEntity
  8
FORMAT
 62
     0
100
AcDbLine
 10
0.0
 20
0.0
 30
0.0
 11
2.5
 21
0.0
 31
0.0
  0
LINE
  5
8E
330
87
100
AcDbEntity
  8
FORMAT
 62
     0
100
AcDbLine
 10
0.0
 20
5.0
 30
0.0
 11
0.0
 21
29.5
 31
0.0
  0
LINE
  5
8F
330
87
100
AcDbEntity
  8
FORMAT
 62
     0
100
AcDbLine
 10
-5.0
 20
0.0
 30
0.0
 11
-29.5
 21
0.0
 31
0.0
  0
LINE
  5
90
330
87
100
AcDbEntity
  8
FORMAT
 62
     0
100
AcDbLine
 10
0.0
 20
-5.0
 30
0.0
 11
0.0
 21
-29.5
 31
0.0
  0
LINE
  5
91
330
87
100
AcDbEntity
  8
FORMAT
 62
     0
100
AcDbLine
 10
5.0
 20
0.0
 30
0.0
 11
29.5
 21
0.0
 31
0.0
  0
ENDBLK
  5
89
330
87
100
AcDbEntity
  8
0
100
AcDbBlockEnd
  0
ENDSEC
  0
SECTION
  2
ENTITIES
  0
CIRCLE
  5
83
330
1F
100
AcDbEntity
  8
0
  6
Continuous
 62
     7
370
    25
100
AcDbCircle
 10
142.9934680851
 20
119.1714893617
 30
0.0
 40
12.49999999999997
  0
CIRCLE
  5
84
330
1F
100
AcDbEntity
  8
0
  6
Continuous
 62
     7
370
    25
100
AcDbCircle
 10
142.9934680851
 20
119.1714893617
 30
0.0
 40
9.499999999999972
  0
CIRCLE
  5
85
330
1F
100
AcDbEntity
  8
0
  6
Continuous
 62
     7
370
    25
100
AcDbCircle
 10
142.9934680851
 20
119.1714893617
 30
0.0
 40
16.99999999999999
  0
CIRCLE
  5
86
330
1F
100
AcDbEntity
  8
0
  6
Continuous
 62
     7
370
    25
100
AcDbCircle
 10
142.9934680851
 20
119.1714893617
 30
0.0
 40
26.99999999999999
  0
INSERT
  5
92
330
1F
100
AcDbEntity
  8
FORMAT
 62
     7
100
AcDbBlockReference
  2
SW_CENTERMARKSYMBOL_0
 10
142.9934680851
 20
119.1714893617
 30
0.0
  0
LINE
  5
93
330
1F
100
AcDbEntity
  8
0
  6
Continuous
 62
     7
370
    25
100
AcDbLine
 10
169.9934680851
 20
175.09159234
 30
0.0
 11
169.9934680851
 21
184.09159234
 31
0.0
  0
LINE
  5
94
330
1F
100
AcDbEntity
  8
0
  6
Continuous
 62
     7
370
    25
100
AcDbLine
 10
115.9934680851
 20
184.09159234
 30
0.0
 11
115.9934680851
 21
175.09159234
 31
0.0
  0
LINE
  5
95
330
1F
100
AcDbEntity
  8
0
  6
Continuous
 62
     7
370
    25
100
AcDbLine
 10
159.9934680851
 20
184.09159234
 30
0.0
 11
155.4934680851
 21
194.09159234
 31
0.0
  0
LINE
  5
96
330
1F
100
AcDbEntity
  8
0
  6
Continuous
 62
     7
370
    25
100
AcDbLine
 10
130.4934680851
 20
194.09159234
 30
0.0
 11
125.9934680851
 21
184.09159234
 31
0.0
  0
LINE
  5
97
330
1F
100
AcDbEntity
  8
0
  6
Continuous
 62
     7
370
    25
100
AcDbLine
 10
155.4934680851
 20
194.09159234
 30
0.0
 11
155.4934680851
 21
256.09159234
 31
0.0
  0
LINE
  5
98
330
1F
100
AcDbEntity
  8
0
  6
Continuous
 62
     7
370
    25
100
AcDbLine
 10
130.4934680851
 20
256.09159234
 30
0.0
 11
130.4934680851
 21
194.09159234
 31
0.0
  0
LINE
  5
99
330
1F
100
AcDbEntity
  8
0
  6
Continuous
 62
     7
370
    25
100
AcDbLine
 10
169.9934680851
 20
175.09159234
 30
0.0
 11
115.9934680851
 21
175.09159234
 31
0.0
  0
LINE
  5
9A
330
1F
100
AcDbEntity
  8
0
  6
Continuous
 62
     7
370
    25
100
AcDbLine
 10
169.9934680851
 20
184.09159234
 30
0.0
 11
115.9934680851
 21
184.09159234
 31
0.0
  0
LINE
  5
9B
330
1F
100
AcDbEntity
  8
0
  6
Continuous
 62
     7
370
    25
100
AcDbLine
 10
155.4934680851
 20
194.09159234
 30
0.0
 11
130.4934680851
 21
194.09159234
 31
0.0
  0
LINE
  5
9C
330
1F
100
AcDbEntity
  8
0
  6
Continuous
 62
     7
370
    25
100
AcDbLine
 10
155.4934680851
 20
256.09159234
 30
0.0
 11
130.4934680851
 21
256.09159234
 31
0.0
  0
LINE
  5
9D
330
1F
100
AcDbEntity
  8
0
  6
Continuous
 62
     7
370
    25
100
AcDbLine
 10
88.3721776945
 20
146.1714893617
 30
0.0
 11
79.3721776945
 21
146.1714893617
 31
0.0
  0
LINE
  5
9E
330
1F
100
AcDbEntity
  8
0
  6
Continuous
 62
     7
370
    25
100
AcDbLine
 10
79.3721776945
 20
92.1714893617
 30
0.0
 11
88.3721776945
 21
92.1714893617
 31
0.0
  0
LINE
  5
9F
330
1F
100
AcDbEntity
  8
0
  6
Continuous
 62
     7
370
    25
100
AcDbLine
 10
79.3721776945
 20
136.1714893617
 30
0.0
 11
69.3721776945
 21
131.6714893617
 31
0.0
  0
LINE
  5
A0
330
1F
100
AcDbEntity
  8
0
  6
Continuous
 62
     7
370
    25
100
AcDbLine
 10
69.3721776945
 20
106.6714893617
 30
0.0
 11
79.3721776945
 21
102.1714893617
 31
0.0
  0
LINE
  5
A1
330
1F
100
AcDbEntity
  8
0
  6
Continuous
 62
     7
370
    25
100
AcDbLine
 10
69.3721776945
 20
131.6714893617
 30
0.0
 11
7.3721776945
 21
131.6714893617
 31
0.0
  0
LINE
  5
A2
330
1F
100
AcDbEntity
  8
0
  6
Continuous
 62
     7
370
    25
100
AcDbLine
 10
7.3721776945
 20
106.6714893617
 30
0.0
 11
69.3721776945
 21
106.6714893617
 31
0.0
  0
LINE
  5
A3
330
1F
100
AcDbEntity
  8
0
  6
Continuous
 62
     7
370
    25
100
AcDbLine
 10
88.3721776945
 20
146.1714893617
 30
0.0
 11
88.3721776945
 21
92.1714893617
 31
0.0
  0
LINE
  5
A4
330
1F
100
AcDbEntity
  8
0
  6
Continuous
 62
     7
370
    25
100
AcDbLine
 10
79.3721776945
 20
146.1714893617
 30
0.0
 11
79.3721776945
 21
92.1714893617
 31
0.0
  0
LINE
  5
A5
330
1F
100
AcDbEntity
  8
0
  6
Continuous
 62
     7
370
    25
100
AcDbLine
 10
69.3721776945
 20
131.6714893617
 30
0.0
 11
69.3721776945
 21
106.6714893617
 31
0.0
  0
LINE
  5
A6
330
1F
100
AcDbEntity
  8
0
  6
Continuous
 62
     7
370
    25
100
AcDbLine
 10
7.3721776945
 20
131.6714893617
 30
0.0
 11
7.3721776945
 21
106.6714893617
 31
0.0
  0
LINE
  5
A7
330
1F
100
AcDbEntity
  8
0
  6
Continuous
 62
     7
370
    25
100
AcDbLine
 10
205.870901224
 20
92.1714893617
 30
0.0
 11
214.870901224
 21
92.1714893617
 31
0.0
  0
LINE
  5
A8
330
1F
100
AcDbEntity
  8
0
  6
Continuous
 62
     7
370
    25
100
AcDbLine
 10
214.870901224
 20
146.1714893617
 30
0.0
 11
205.870901224
 21
146.1714893617
 31
0.0
  0
LINE
  5
A9
330
1F
100
AcDbEntity
  8
0
  6
Continuous
 62
     7
370
    25
100
AcDbLine
 10
214.870901224
 20
102.1714893617
 30
0.0
 11
224.870901224
 21
106.6714893617
 31
0.0
  0
LINE
  5
AA
330
1F
100
AcDbEntity
  8
0
  6
Continuous
 62
     7
370
    25
100
AcDbLine
 10
224.870901224
 20
131.6714893617
 30
0.0
 11
214.870901224
 21
136.1714893617
 31
0.0
  0
LINE
  5
AB
330
1F
100
AcDbEntity
  8
0
  6
Continuous
 62
     7
370
    25
100
AcDbLine
 10
224.870901224
 20
106.6714893617
 30
0.0
 11
286.870901224
 21
106.6714893617
 31
0.0
  0
LINE
  5
AC
330
1F
100
AcDbEntity
  8
0
  6
Continuous
 62
     7
370
    25
100
AcDbLine
 10
286.870901224
 20
131.6714893617
 30
0.0
 11
224.870901224
 21
131.6714893617
 31
0.0
  0
LINE
  5
AD
330
1F
100
AcDbEntity
  8
0
  6
Continuous
 62
     7
370
    25
100
AcDbLine
 10
205.870901224
 20
119.1714893617
 30
0.0
 11
205.870901224
 21
146.1714893617
 31
0.0
  0
LINE
  5
AE
330
1F
100
AcDbEntity
  8
0
  6
Continuous
 62
     7
370
    25
100
AcDbLine
 10
205.870901224
 20
92.1714893617
 30
0.0
 11
205.870901224
 21
119.1714893617
 31
0.0
  0
LINE
  5
AF
330
1F
100
AcDbEntity
  8
0
  6
Continuous
 62
     7
370
    25
100
AcDbLine
 10
214.870901224
 20
119.1714893617
 30
0.0
 11
214.870901224
 21
146.1714893617
 31
0.0
  0
LINE
  5
B0
330
1F
100
AcDbEntity
  8
0
  6
Continuous
 62
     7
370
    25
100
AcDbLine
 10
214.870901224
 20
92.1714893617
 30
0.0
 11
214.870901224
 21
119.1714893617
 31
0.0
  0
LINE
  5
B1
330
1F
100
AcDbEntity
  8
0
  6
Continuous
 62
     7
370
    25
100
AcDbLine
 10
224.870901224
 20
119.1714893617
 30
0.0
 11
224.870901224
 21
131.6714893617
 31
0.0
  0
LINE
  5
B2
330
1F
100
AcDbEntity
  8
0
  6
Continuous
 62
     7
370
    25
100
AcDbLine
 10
224.870901224
 20
106.6714893617
 30
0.0
 11
224.870901224
 21
119.1714893617
 31
0.0
  0
LINE
  5
B3
330
1F
100
AcDbEntity
  8
0
  6
Continuous
 62
     7
370
    25
100
AcDbLine
 10
286.870901224
 20
119.1714893617
 30
0.0
 11
286.870901224
 21
131.6714893617
 31
0.0
  0
LINE
  5
B4
330
1F
100
AcDbEntity
  8
0
  6
Continuous
 62
     7
370
    25
100
AcDbLine
 10
286.870901224
 20
106.6714893617
 30
0.0
 11
286.870901224
 21
119.1714893617
 31
0.0
  0
LINE
  5
B5
330
1F
100
AcDbEntity
  8
0
  6
Continuous
 62
     7
370
    25
100
AcDbLine
 10
115.9934680851
 20
54.4054013484
 30
0.0
 11
115.9934680851
 21
45.4054013484
 31
0.0
  0
LINE
  5
B6
330
1F
100
AcDbEntity
  8
0
  6
Continuous
 62
     7
370
    25
100
AcDbLine
 10
169.9934680851
 20
45.4054013484
 30
0.0
 11
169.9934680851
 21
54.4054013484
 31
0.0
  0
LINE
  5
B7
330
1F
100
AcDbEntity
  8
0
  6
Continuous
 62
     7
370
    25
100
AcDbLine
 10
125.9934680851
 20
45.4054013484
 30
0.0
 11
130.4934680851
 21
35.4054013484
 31
0.0
  0
LINE
  5
B8
330
1F
100
AcDbEntity
  8
0
  6
Continuous
 62
     7
370
    25
100
AcDbLine
 10
155.4934680851
 20
35.4054013484
 30
0.0
 11
159.9934680851
 21
45.4054013484
 31
0.0
  0
LINE
  5
B9
330
1F
100
AcDbEntity
  8
0
  6
Continuous
 62
     7
370
    25
100
AcDbLine
 10
130.4934680851
 20
35.4054013484
 30
0.0
 11
130.4934680851
 21
-26.5945986516
 31
0.0
  0
LINE
  5
BA
330
1F
100
AcDbEntity
  8
0
  6
Continuous
 62
     7
370
    25
100
AcDbLine
 10
155.4934680851
 20
-26.5945986516
 30
0.0
 11
155.4934680851
 21
35.4054013484
 31
0.0
  0
LINE
  5
BB
330
1F
100
AcDbEntity
  8
0
  6
Continuous
 62
     7
370
    25
100
AcDbLine
 10
115.9934680851
 20
54.4054013484
 30
0.0
 11
169.9934680851
 21
54.4054013484
 31
0.0
  0
LINE
  5
BC
330
1F
100
AcDbEntity
  8
0
  6
Continuous
 62
     7
370
    25
100
AcDbLine
 10
115.9934680851
 20
45.4054013484
 30
0.0
 11
169.9934680851
 21
45.4054013484
 31
0.0
  0
LINE
  5
BD
330
1F
100
AcDbEntity
  8
0
  6
Continuous
 62
     7
370
    25
100
AcDbLine
 10
130.4934680851
 20
35.4054013484
 30
0.0
 11
155.4934680851
 21
35.4054013484
 31
0.0
  0
LINE
  5
BE
330
1F
100
AcDbEntity
  8
0
  6
Continuous
 62
     7
370
    25
100
AcDbLine
 10
130.4934680851
 20
-26.5945986516
 30
0.0
 11
155.4934680851
 21
-26.5945986516
 31
0.0
  0
LINE
  5
BF
330
1F
100
AcDbEntity
  8
0
  6
Continuous
 62
     7
370
    25
100
AcDbLine
 10
250.8736584792
 20
40.0454088928
 30
0.0
 11
207.0330380457
 21
65.3540603593
 31
0.0
  0
LINE
  5
C0
330
1F
100
AcDbEntity
  8
0
  6
Continuous
 62
     7
370
    25
100
AcDbLine
 10
194.5340538877
 20
43.7028387998
 30
0.0
 11
238.3746743213
 21
18.3941873333
 31
0.0
  0
LINE
  5
C1
330
1F
100
AcDbEntity
  8
0
  6
Continuous
 62
     7
370
    25
100
AcDbLine
 10
271.5580981334
 20
44.847240335
 30
0.0
 11
265.1941371027
 21
48.5210768382
 31
0.0
  0
LINE
  5
C2
330
1F
100
AcDbEntity
  8
0
  6
Continuous
 62
     7
370
    25
100
AcDbLine
 10
238.1963313215
 20
1.7544382697
 30
0.0
 11
244.5602923522
 21
-1.9193982335
 31
0.0
  0
LINE
  5
C3
330
1F
100
AcDbEntity
  8
0
  6
Continuous
 62
     7
370
    25
100
AcDbLine
 10
257.0475887722
 20
40.6568647158
 30
0.0
 11
249.8525880802
 21
40.6348602874
 31
0.0
  0
LINE
  5
C4
330
1F
100
AcDbEntity
  8
0
  6
Continuous
 62
     7
370
    25
100
AcDbLine
 10
237.3536039222
 20
18.9836387279
 30
0.0
 11
240.9326336018
 21
12.7419189563
 31
0.0
  0
LWPOLYLINE
  5
C5
330
1F
100
AcDbEntity
  8
0
  6
Continuous
 62
     7
370
    25
100
AcDbPolyline
 90
       42
 70
   128
 43
0.0
 10
250.8736584792
 20
40.0454088928
 10
250.8741664003
 20
40.0451156286
 10
251.3452690844
 20
39.7285685625
 10
251.7749339355
 20
39.3472314321
 10
252.1605119269
 20
38.9034553076
 10
252.499625842
 20
38.3999762163
 10
252.7901849307
 20
37.8398982743
 10
253.0303977998
 20
37.2266745484
 10
253.218783457
 20
36.5640857666
 10
253.3541804419
 20
35.8562170093
 10
253.4357539873
 20
35.1074325226
 10
253.4630011651
 20
34.322348812
 10
253.4357539873
 20
33.5058061795
 10
253.3541804419
 20
32.662838882
 10
253.218783457
 20
31.7986440933
 10
253.0303977998
 20
30.9185498615
 10
252.7901849307
 20
30.0279822604
 10
252.499625842
 20
29.1324319352
 10
252.1605119269
 20
28.2374202516
 10
251.7749339355
 20
27.3484652541
 10
251.3452690844
 20
26.471047646
 10
250.8741664003
 20
25.6105769986
 10
250.3645303878
 20
24.7723583995
 10
249.8195031225
 20
23.9615597452
 10
249.2424448787
 20
23.183179879
 10
248.6369134123
 20
22.4420177716
 10
248.0066420262
 20
21.7426429338
 10
247.3555165531
 20
21.0893672441
 10
246.687551398
 20
20.4862183644
 10
246.0068647883
 20
19.936914908
 10
245.3176533832
 20
19.4448435134
 10
244.6241664003
 20
19.0130379645
 10
243.9306794173
 20
18.644160486
 10
243.2414680123
 20
18.3404853301
 10
242.5607814025
 20
18.1038847554
 10
241.8928162475
 20
17.9358174829
 10
241.2416907744
 20
17.8373197033
 10
240.6114193883
 20
17.8089986881
 10
240.0058879219
 20
17.8510290459
 10
239.428829678
 20
17.9631516455
 10
238.8838024127
 20
18.1446752137
 10
238.3746743213
 20
18.3941873333
  0
LWPOLYLINE
  5
C6
330
1F
100
AcDbEntity
  8
0
  6
Continuous
 62
     7
370
    25
100
AcDbPolyline
 90
       81
 70
   128
 43
0.0
 10
191.9447112019
 20
49.4258988807
 10
191.9719583796
 20
50.2424415132
 10
192.053531925
 20
51.0854088106
 10
192.18892891
 20
51.9496035993
 10
192.3773145672
 20
52.8296978311
 10
192.6175274362
 20
53.7202654322
 10
192.908086525
 20
54.6158157574
 10
193.2472004401
 20
55.5108274411
 10
193.6327784315
 20
56.3997824385
 10
194.0624432826
 20
57.2772000466
 10
194.5335459667
 20
58.137670694
 10
195.0431819792
 20
58.9758892931
 10
195.5882092445
 20
59.7866879474
 10
196.1652674883
 20
60.5650678136
 10
196.7707989547
 20
61.306229921
 10
197.4010703408
 20
62.0056047588
 10
198.0521958139
 20
62.6588804485
 10
198.720160969
 20
63.2620293283
 10
199.4008475787
 20
63.8113327846
 10
200.0900589838
 20
64.3034041792
 10
200.7835459667
 20
64.7352097281
 10
201.4770329496
 20
65.1040872067
 10
202.1662443547
 20
65.4077623625
 10
202.8469309644
 20
65.6443629372
 10
203.5148961195
 20
65.8124302097
 10
204.1660215926
 20
65.9109279893
 10
204.7962929787
 20
65.9392490045
 10
205.4018244451
 20
65.8972186467
 10
205.9788826889
 20
65.7850960472
 10
206.5239099542
 20
65.6035724789
 10
207.0335459667
 20
65.3537670951
 10
207.5046486508
 20
65.037220029
 10
207.9343135019
 20
64.6558828986
 10
208.3198914933
 20
64.2121067741
 10
208.6590054084
 20
63.7086276828
 10
208.9495644972
 20
63.1485497409
 10
209.1897773663
 20
62.5353260149
 10
209.3781630234
 20
61.8727372331
 10
209.5135600084
 20
61.1648684758
 10
209.5951335538
 20
60.4160839891
 10
209.6223807315
 20
59.6310002785
 10
209.5951335538
 20
58.814457646
 10
209.5135600084
 20
57.9714903485
 10
209.3781630234
 20
57.1072955598
 10
209.1897773663
 20
56.2272013281
 10
208.9495644972
 20
55.3366337269
 10
208.6590054084
 20
54.4410834017
 10
208.3198914933
 20
53.5460717181
 10
207.9343135019
 20
52.6571167206
 10
207.5046486508
 20
51.7796991125
 10
207.0335459667
 20
50.9192284651
 10
206.5239099542
 20
50.081009866
 10
205.9788826889
 20
49.2702112117
 10
205.4018244451
 20
48.4918313455
 10
204.7962929787
 20
47.7506692381
 10
204.1660215926
 20
47.0512944003
 10
203.5148961195
 20
46.3980187106
 10
202.8469309644
 20
45.7948698309
 10
202.1662443547
 20
45.2455663745
 10
201.4770329496
 20
44.7534949799
 10
200.7835459667
 20
44.321689431
 10
200.0900589838
 20
43.9528119525
 10
199.4008475787
 20
43.6491367966
 10
198.720160969
 20
43.4125362219
 10
198.0521958139
 20
43.2444689494
 10
197.4010703408
 20
43.1459711698
 10
196.7707989547
 20
43.1176501546
 10
196.1652674883
 20
43.1596805124
 10
195.5882092445
 20
43.271803112
 10
195.0431819792
 20
43.4533266802
 10
194.5335459667
 20
43.703132064
 10
194.0624432826
 20
44.0196791301
 10
193.6327784315
 20
44.4010162605
 10
193.2472004401
 20
44.844792385
 10
192.908086525
 20
45.3482714763
 10
192.6175274362
 20
45.9083494183
 10
192.3773145672
 20
46.5215731442
 10
192.18892891
 20
47.184161926
 10
192.053531925
 20
47.8920306833
 10
191.9719583796
 20
48.64081517
 10
191.9447112019
 20
49.4258988807
  0
LWPOLYLINE
  5
C7
330
1F
100
AcDbEntity
  8
0
  6
Continuous
 62
     7
370
    25
100
AcDbPolyline
 90
       71
 70
   128
 43
0.0
 10
194.0660315454
 20
50.6505110484
 10
194.0930742836
 20
51.3614669525
 10
194.1739847658
 20
52.0979215385
 10
194.3081115484
 20
52.8539453072
 10
194.4943747215
 20
53.6234511997
 10
194.7312746034
 20
54.4002436071
 10
195.0169038158
 20
55.1780682535
 10
195.3489626399
 20
55.9506625524
 10
195.7247775336
 20
56.7118060286
 10
196.1413226561
 20
57.4553704025
 10
196.5952442312
 20
58.1753689309
 10
197.0828875492
 20
58.8660046091
 10
197.6003263927
 20
59.5217168446
 10
198.1433946486
 20
60.1372262281
 10
198.7077198506
 20
60.70757704
 10
199.2887583838
 20
61.2281771507
 10
199.8818320678
 20
61.6948349945
 10
200.4821658218
 20
62.1037933167
 10
201.0849261116
 20
62.4517594253
 10
201.6852598656
 20
62.7359317019
 10
202.2783335496
 20
62.9540221583
 10
202.8593720828
 20
63.1042748585
 10
203.4236972848
 20
63.1854800561
 10
203.9667655407
 20
63.1969839345
 10
204.4842043842
 20
63.1386938713
 10
204.9718477022
 20
63.0110791838
 10
205.4257692773
 20
62.8151673504
 10
205.8423143998
 20
62.5525357381
 10
206.2181292935
 20
62.2252989021
 10
206.5501881176
 20
61.836091561
 10
206.83581733
 20
61.3880473835
 10
207.0727172119
 20
60.8847737579
 10
207.258980385
 20
60.3303227474
 10
207.3931071676
 20
59.7291584657
 10
207.4740176498
 20
59.0861211339
 10
207.501060388
 20
58.4063881107
 10
207.4740176498
 20
57.6954322066
 10
207.3931071676
 20
56.9589776206
 10
207.258980385
 20
56.2029538519
 10
207.0727172119
 20
55.4334479594
 10
206.83581733
 20
54.656655552
 10
206.5501881176
 20
53.8788309056
 10
206.2181292935
 20
53.1062366068
 10
205.8423143998
 20
52.3450931305
 10
205.4257692773
 20
51.6015287566
 10
204.9718477022
 20
50.8815302282
 10
204.4842043842
 20
50.19089455
 10
203.9667655407
 20
49.5351823145
 10
203.4236972848
 20
48.919672931
 10
202.8593720828
 20
48.3493221192
 10
202.2783335496
 20
47.8287220084
 10
201.6852598656
 20
47.3620641646
 10
201.0849261116
 20
46.9531058425
 10
200.4821658218
 20
46.6051397338
 10
199.8818320678
 20
46.3209674573
 10
199.2887583838
 20
46.1028770008
 10
198.7077198506
 20
45.9526243006
 10
198.1433946486
 20
45.8714191031
 10
197.6003263927
 20
45.8599152247
 10
197.0828875492
 20
45.9182052879
 10
196.5952442312
 20
46.0458199754
 10
196.1413226561
 20
46.2417318087
 10
195.7247775336
 20
46.5043634211
 10
195.3489626399
 20
46.8316002571
 10
195.0169038158
 20
47.2208075981
 10
194.7312746034
 20
47.6688517756
 10
194.4943747215
 20
48.1721254012
 10
194.3081115484
 20
48.7265764117
 10
194.1739847658
 20
49.3277406934
 10
194.0930742836
 20
49.9707780252
 10
194.0660315454
 20
50.6505110484
  0
LWPOLYLINE
  5
C8
330
1F
100
AcDbEntity
  8
0
  6
Continuous
 62
     7
370
    25
100
AcDbPolyline
 90
       61
 70
   128
 43
0.0
 10
271.5580981334
 20
44.847240335
 10
272.0874174301
 20
44.5167123744
 10
272.7567756547
 20
44.0197690651
 10
273.3844719908
 20
43.458888754
 10
273.9687271649
 20
42.8356613173
 10
274.5078850422
 20
42.1518533608
 10
275.0004173213
 20
41.4094032125
 10
275.4449278657
 20
40.610415428
 10
275.8401566621
 20
39.7571548251
 10
276.1849833915
 20
38.8520400635
 10
276.4784306052
 20
37.8976367893
 10
276.719666495
 20
36.8966503625
 10
276.9080072516
 20
35.8519181877
 10
277.0429190028
 20
34.7664016718
 10
277.1240193264
 20
33.6431778294
 10
277.1510783348
 20
32.4854305603
 10
277.1240193264
 20
31.2964416252
 10
277.0429190028
 20
30.0795813421
 10
276.9080072516
 20
28.838299034
 10
276.719666495
 20
27.5761132502
 10
276.4784306052
 20
26.2966017935
 10
276.1849833915
 20
25.0033915783
 10
275.8401566621
 20
23.7001483493
 10
275.4449278657
 20
22.390566291
 10
275.0004173213
 20
21.0783575562
 10
274.5078850422
 20
19.7672417429
 10
273.9687271649
 20
18.4609353515
 10
273.3844719908
 20
17.1631412493
 10
272.7567756547
 20
15.8775381748
 10
272.0874174301
 20
14.6077703094
 10
271.3782946856
 20
13.3574369482
 10
270.6314175067
 20
12.130082297
 10
269.8489029978
 20
10.9291854257
 10
269.0329692814
 20
9.7581504072
 10
268.1859292102
 20
8.6202966673
 10
267.3101838113
 20
7.5188495762
 10
266.4082154803
 20
6.4569313053
 10
265.4825809443
 20
5.4375519772
 10
264.535904015
 20
4.4636011335
 10
263.570868151
 20
3.5378395436
 10
262.5902088514
 20
2.6628913794
 10
261.5967059014
 20
1.8412367764
 10
260.593175493
 20
1.0752048039
 10
259.5824622424
 20
0.3669668628
 10
258.567431126
 20
-0.2814694695
 10
257.5509593597
 20
-0.8682661299
 10
256.5359282432
 20
-1.3917597793
 10
255.5252149926
 20
-1.8504665183
 10
254.5216845843
 20
-2.2430860927
 10
253.5281816343
 20
-2.5685055797
 10
252.5475223346
 20
-2.8258025423
 10
251.5824864706
 20
-3.0142476444
 10
250.6358095413
 20
-3.1333067179
 10
249.7101750053
 20
-3.1826422768
 10
248.8082066743
 20
-3.1621144743
 10
247.9324612754
 20
-3.0717814985
 10
247.0854212042
 20
-2.9118994082
 10
246.2694874878
 20
-2.6829214064
 10
245.4869729789
 20
-2.3854965561
 10
244.7400958
 20
-2.0204679406
 10
244.5602923522
 20
-1.9193982335
  0
ARC
  5
C9
330
1F
100
AcDbEntity
  8
0
  6
Continuous
 62
     7
370
    25
100
AcDbCircle
 10
263.9590068468
 20
13.8590351755
 30
0.0
 40
31.35671067751824
100
AcDbArc
 50
166.4220486908
 51
179.5300088315
  0
LWPOLYLINE
  5
CA
330
1F
100
AcDbEntity
  8
0
  6
Continuous
 62
     7
370
    25
100
AcDbPolyline
 90
       97
 70
   128
 43
0.0
 10
245.9776559731
 20
42.8718109779
 10
246.1835613039
 20
43.0638390611
 10
247.1642206036
 20
43.9387872253
 10
248.1577235536
 20
44.7604418283
 10
249.1612539619
 20
45.5264738008
 10
250.1719672125
 20
46.2347117419
 10
251.186998329
 20
46.8831480742
 10
252.2034700953
 20
47.4699447346
 10
253.2185012117
 20
47.993438384
 10
254.2292144624
 20
48.452145123
 10
255.2327448707
 20
48.8447646974
 10
256.2262478207
 20
49.1701841843
 10
257.2069071204
 20
49.427481147
 10
258.1719429843
 20
49.6159262491
 10
259.1186199136
 20
49.7349853226
 10
260.0442544496
 20
49.7843208815
 10
260.9462227807
 20
49.763793079
 10
261.8219681795
 20
49.6734601032
 10
262.6690082507
 20
49.5135780129
 10
263.4849419671
 20
49.284600011
 10
264.267456476
 20
48.9871751608
 10
265.014333655
 20
48.6221465452
 10
265.7234563995
 20
48.1905488776
 10
266.3928146241
 20
47.6936055683
 10
267.0205109601
 20
47.1327252572
 10
267.6047661342
 20
46.5094978205
 10
268.1439240116
 20
45.825689864
 10
268.6364562906
 20
45.0832397157
 10
269.080966835
 20
44.2842519313
 10
269.4761956314
 20
43.4309913283
 10
269.8210223609
 20
42.5258765667
 10
270.1144695745
 20
41.5714732925
 10
270.3557054643
 20
40.5704868657
 10
270.5440462209
 20
39.5257546909
 10
270.6789579721
 20
38.440238175
 10
270.7600582957
 20
37.3170143326
 10
270.7871173042
 20
36.1592670636
 10
270.7600582957
 20
34.9702781284
 10
270.6789579721
 20
33.7534178453
 10
270.5440462209
 20
32.5121355372
 10
270.3557054643
 20
31.2499497534
 10
270.1144695745
 20
29.9704382968
 10
269.8210223609
 20
28.6772280815
 10
269.4761956314
 20
27.3739848525
 10
269.080966835
 20
26.0644027942
 10
268.6364562906
 20
24.7521940594
 10
268.1439240116
 20
23.4410782461
 10
267.6047661342
 20
22.1347718547
 10
267.0205109601
 20
20.8369777525
 10
266.3928146241
 20
19.551374678
 10
265.7234563995
 20
18.2816068126
 10
265.014333655
 20
17.0312734514
 10
264.267456476
 20
15.8039188002
 10
263.4849419671
 20
14.6030219289
 10
262.6690082507
 20
13.4319869104
 10
261.8219681795
 20
12.2941331705
 10
260.9462227807
 20
11.1926860794
 10
260.0442544496
 20
10.1307678085
 10
259.1186199136
 20
9.1113884804
 10
258.1719429843
 20
8.1374376367
 10
257.2069071204
 20
7.2116760468
 10
256.2262478207
 20
6.3367278826
 10
255.2327448707
 20
5.5150732796
 10
254.2292144624
 20
4.7490413071
 10
253.2185012117
 20
4.040803366
 10
252.2034700953
 20
3.3923670337
 10
251.186998329
 20
2.8055703733
 10
250.1719672125
 20
2.2820767239
 10
249.1612539619
 20
1.8233699849
 10
248.1577235536
 20
1.4307504105
 10
247.1642206036
 20
1.1053309235
 10
246.1835613039
 20
0.8480339609
 10
245.2185254399
 20
0.6595888588
 10
244.2718485106
 20
0.5405297853
 10
243.3462139746
 20
0.4911942264
 10
242.4442456436
 20
0.5117220289
 10
241.5685002447
 20
0.6020550047
 10
240.7214601735
 20
0.761937095
 10
239.9055264571
 20
0.9909150968
 10
239.1230119482
 20
1.2883399471
 10
238.3761347693
 20
1.6533685626
 10
237.6670120248
 20
2.0849662303
 10
236.9976538002
 20
2.5819095396
 10
236.3699574641
 20
3.1427898507
 10
235.78570229
 20
3.7660172874
 10
235.2465444127
 20
4.4498252439
 10
234.7540121337
 20
5.1922753922
 10
234.3095015892
 20
5.9912631766
 10
233.9142727928
 20
6.8445237796
 10
233.5694460634
 20
7.7496385412
 10
233.2759988498
 20
8.7040418153
 10
233.03476296
 20
9.7050282422
 10
232.8464222033
 20
10.749760417
 10
232.7115104522
 20
11.8352769328
 10
232.6304101285
 20
12.9585007753
 10
232.6033511201
 20
14.1162480443
 10
232.6033511201
 20
14.1162480443
  0
LWPOLYLINE
  5
CB
330
1F
100
AcDbEntity
  8
0
  6
Continuous
 62
     7
370
    25
100
AcDbPolyline
 90
       58
 70
   128
 43
0.0
 10
257.0475887722
 20
40.6568647158
 10
257.7056418522
 20
40.6289584966
 10
258.3947286344
 20
40.5307762916
 10
259.0532471602
 20
40.3623592726
 10
259.6781927606
 20
40.1244758879
 10
260.266713952
 20
39.8182115448
 10
260.8161254474
 20
39.4449636573
 10
261.323920408
 20
39.0064352698
 10
261.7877818819
 20
38.5046272868
 10
262.2055933756
 20
37.9418293431
 10
262.5754485112
 20
37.3206093565
 10
262.8956597244
 20
36.6438018114
 10
263.1647659649
 20
35.9144948254
 10
263.3815393626
 20
35.1360160589
 10
263.5449908304
 20
34.3119175321
 10
263.6543745765
 20
33.4459594176
 10
263.7091915082
 20
32.5420928834
 10
263.7091915082
 20
31.6044420655
 10
263.6543745765
 20
30.6372852493
 10
263.5449908304
 20
29.6450353496
 10
263.3815393626
 20
28.6322197751
 10
263.1647659649
 20
27.603459771
 10
262.8956597244
 20
26.5634493332
 10
262.5754485112
 20
25.5169337908
 10
262.2055933756
 20
24.4686881542
 10
261.7877818819
 20
23.4234953279
 10
261.323920408
 20
22.3861242868
 10
260.8161254474
 20
21.3613083173
 10
260.266713952
 20
20.3537234195
 10
259.6781927606
 20
19.3679669721
 10
259.0532471602
 20
18.4085367558
 10
258.3947286344
 20
17.4798104307
 10
257.7056418522
 20
16.5860255618
 10
256.9891309585
 20
15.7312602845
 10
256.2484652281
 20
14.9194146968
 10
255.4870241489
 20
14.1541930639
 10
254.7082820019
 20
13.4390869166
 10
253.9157920089
 20
12.7773591202
 10
253.1131701201
 20
12.1720289868
 10
252.3040785148
 20
11.6258584991
 10
251.4922088927
 20
11.1413397077
 10
250.6812656285
 20
10.7206833607
 10
249.8749488705
 20
10.3658088165
 10
249.0769376569
 20
10.0783352863
 10
248.29087313
 20
9.8595744459
 10
247.5203419219
 20
9.7105244509
 10
246.7688597897
 20
9.631865382
 10
246.0398555741
 20
9.6239561428
 10
245.3366555541
 20
9.6868328211
 10
244.6624682702
 20
9.8202085251
 10
244.0203698842
 20
10.0234746921
 10
243.4132901438
 20
10.2957038652
 10
242.8439990146
 20
10.6356539252
 10
242.3150940416
 20
11.0417737577
 10
241.8289884967
 20
11.5122103313
 10
241.387900368
 20
12.0448171517
 10
240.9938422397
 20
12.6371640561
 10
240.9326336018
 20
12.7419189563
  0
ENDSEC
  0
SECTION
  2
OBJECTS
  0
DICTIONARY
  5
C
330
0
100
AcDbDictionary
281
     1
  3
ACAD_GROUP
350
D
  3
ACAD_LAYOUT
350
1A
  3
ACAD_MLINESTYLE
350
17
  3
ACAD_PLOTSETTINGS
350
19
  3
ACAD_PLOTSTYLENAME
350
E
  3
ACAD_SCALELIST
350
47
  0
DICTIONARY
  5
D
102
{ACAD_REACTORS
330
C
102
}
330
C
100
AcDbDictionary
281
     1
  0
DICTIONARY
  5
1A
102
{ACAD_REACTORS
330
C
102
}
330
C
100
AcDbDictionary
281
     1
  3
Layout1
350
1E
  3
Layout2
350
26
  3
Model
350
22
  0
DICTIONARY
  5
17
102
{ACAD_REACTORS
330
C
102
}
330
C
100
AcDbDictionary
281
     1
  3
Standard
350
18
  0
DICTIONARY
  5
19
102
{ACAD_REACTORS
330
C
102
}
330
C
100
AcDbDictionary
281
     1
  0
ACDBDICTIONARYWDFLT
  5
E
102
{ACAD_REACTORS
330
C
102
}
330
C
100
AcDbDictionary
281
     1
  3
Normal
350
F
100
AcDbDictionaryWithDefault
340
F
  0
DICTIONARY
  5
47
102
{ACAD_REACTORS
330
C
102
}
330
C
100
AcDbDictionary
281
     1
  3
A0
350
48
  3
A1
350
49
  3
A2
350
4A
  3
A3
350
4B
  3
A4
350
4C
  3
A5
350
4D
  3
A6
350
4E
  3
A7
350
4F
  3
A8
350
50
  3
A9
350
51
  3
B0
350
52
  3
B1
350
53
  3
B2
350
54
  3
B3
350
55
  3
B4
350
56
  3
B5
350
57
  3
B6
350
58
  3
B7
350
59
  3
B8
350
5A
  3
B9
350
5B
  3
C0
350
5C
  3
C1
350
5D
  3
C2
350
5E
  3
C3
350
5F
  3
C4
350
60
  3
C5
350
61
  3
C6
350
62
  3
C7
350
63
  3
C8
350
64
  3
C9
350
65
  3
D0
350
66
  3
D1
350
67
  3
D2
350
68
  0
LAYOUT
  5
1E
102
{ACAD_REACTORS
330
1A
102
}
330
1A
100
AcDbPlotSettings
  1

  2
none_device
  4

  6

 40
0.0
 41
0.0
 42
0.0
 43
0.0
 44
0.0
 45
0.0
 46
0.0
 47
0.0
 48
0.0
 49
0.0
140
0.0
141
0.0
142
1.0
143
1.0
 70
   688
 72
     1
 73
     0
 74
     5
  7

 75
    16
147
1.0
148
0.0
149
0.0
100
AcDbLayout
  1
Layout1
 70
     1
 71
     1
 10
0.0
 20
0.0
 11
420.0
 21
297.0
 12
0.0
 22
0.0
 32
0.0
 14
1.0000000000E+20
 24
1.0000000000E+20
 34
1.0000000000E+20
 15
-1.0000000000E+20
 25
-1.0000000000E+20
 35
-1.0000000000E+20
146
0.0
 13
0.0
 23
0.0
 33
0.0
 16
1.0
 26
0.0
 36
0.0
 17
0.0
 27
1.0
 37
0.0
 76
     0
330
1B
  0
LAYOUT
  5
26
102
{ACAD_REACTORS
330
1A
102
}
330
1A
100
AcDbPlotSettings
  1

  2
none_device
  4

  6

 40
0.0
 41
0.0
 42
0.0
 43
0.0
 44
0.0
 45
0.0
 46
0.0
 47
0.0
 48
0.0
 49
0.0
140
0.0
141
0.0
142
1.0
143
1.0
 70
   688
 72
     1
 73
     0
 74
     5
  7

 75
    16
147
1.0
148
0.0
149
0.0
100
AcDbLayout
  1
Layout2
 70
     1
 71
     2
 10
0.0
 20
0.0
 11
0.0
 21
0.0
 12
0.0
 22
0.0
 32
0.0
 14
0.0
 24
0.0
 34
0.0
 15
0.0
 25
0.0
 35
0.0
146
0.0
 13
0.0
 23
0.0
 33
0.0
 16
1.0
 26
0.0
 36
0.0
 17
0.0
 27
1.0
 37
0.0
 76
     0
330
23
  0
LAYOUT
  5
22
102
{ACAD_REACTORS
330
1A
102
}
330
1A
100
AcDbPlotSettings
  1

  2
none_device
  4
Letter_(8.50_x_11.00_Inches)
  6

 40
6.35
 41
6.35
 42
6.35000508
 43
6.35000508
 44
215.9
 45
279.4
 46
0.0
 47
0.0
 48
0.0
 49
0.0
140
0.0
141
0.0
142
1.0
143
1.0
 70
  1712
 72
     1
 73
     0
 74
     0
  7

 75
     0
147
1.0
148
0.0
149
0.0
100
AcDbLayout
  1
Model
 70
     1
 71
     0
 10
0.0
 20
0.0
 11
279.4
 21
215.9
 12
0.0
 22
0.0
 32
0.0
 14
0.0
 24
0.0
 34
0.0
 15
279.4
 25
215.9
 35
0.0
146
0.0
 13
0.0
 23
0.0
 33
0.0
 16
1.0
 26
0.0
 36
0.0
 17
0.0
 27
1.0
 37
0.0
 76
     0
330
1F
331
29
  0
MLINESTYLE
  5
18
102
{ACAD_REACTORS
330
17
102
}
330
17
100
AcDbMlineStyle
  2
Standard
 70
     0
  3

 62
   256
 51
90.0
 52
90.0
 71
     2
 49
0.5
 62
   256
  6
BYLAYER
 49
-0.5
 62
   256
  6
BYLAYER
  0
ACDBPLACEHOLDER
  5
F
102
{ACAD_REACTORS
330
E
102
}
330
E
  0
SCALE
  5
48
102
{ACAD_REACTORS
330
47
102
}
330
47
100
AcDbScale
 70
     0
300
1:1
140
1.0
141
1.0
290
     1
  0
SCALE
  5
49
102
{ACAD_REACTORS
330
47
102
}
330
47
100
AcDbScale
 70
     0
300
1:2
140
1.0
141
2.0
290
     0
  0
SCALE
  5
4A
102
{ACAD_REACTORS
330
47
102
}
330
47
100
AcDbScale
 70
     0
300
1:4
140
1.0
141
4.0
290
     0
  0
SCALE
  5
4B
102
{ACAD_REACTORS
330
47
102
}
330
47
100
AcDbScale
 70
     0
300
1:5
140
1.0
141
5.0
290
     0
  0
SCALE
  5
4C
102
{ACAD_REACTORS
330
47
102
}
330
47
100
AcDbScale
 70
     0
300
1:8
140
1.0
141
8.0
290
     0
  0
SCALE
  5
4D
102
{ACAD_REACTORS
330
47
102
}
330
47
100
AcDbScale
 70
     0
300
1:10
140
1.0
141
10.0
290
     0
  0
SCALE
  5
4E
102
{ACAD_REACTORS
330
47
102
}
330
47
100
AcDbScale
 70
     0
300
1:16
140
1.0
141
16.0
290
     0
  0
SCALE
  5
4F
102
{ACAD_REACTORS
330
47
102
}
330
47
100
AcDbScale
 70
     0
300
1:20
140
1.0
141
20.0
290
     0
  0
SCALE
  5
50
102
{ACAD_REACTORS
330
47
102
}
330
47
100
AcDbScale
 70
     0
300
1:30
140
1.0
141
30.0
290
     0
  0
SCALE
  5
51
102
{ACAD_REACTORS
330
47
102
}
330
47
100
AcDbScale
 70
     0
300
1:40
140
1.0
141
40.0
290
     0
  0
SCALE
  5
52
102
{ACAD_REACTORS
330
47
102
}
330
47
100
AcDbScale
 70
     0
300
1:50
140
1.0
141
50.0
290
     0
  0
SCALE
  5
53
102
{ACAD_REACTORS
330
47
102
}
330
47
100
AcDbScale
 70
     0
300
1:100
140
1.0
141
100.0
290
     0
  0
SCALE
  5
54
102
{ACAD_REACTORS
330
47
102
}
330
47
100
AcDbScale
 70
     0
300
2:1
140
2.0
141
1.0
290
     0
  0
SCALE
  5
55
102
{ACAD_REACTORS
330
47
102
}
330
47
100
AcDbScale
 70
     0
300
4:1
140
4.0
141
1.0
290
     0
  0
SCALE
  5
56
102
{ACAD_REACTORS
330
47
102
}
330
47
100
AcDbScale
 70
     0
300
8:1
140
8.0
141
1.0
290
     0
  0
SCALE
  5
57
102
{ACAD_REACTORS
330
47
102
}
330
47
100
AcDbScale
 70
     0
300
10:1
140
10.0
141
1.0
290
     0
  0
SCALE
  5
58
102
{ACAD_REACTORS
330
47
102
}
330
47
100
AcDbScale
 70
     0
300
100:1
140
100.0
141
1.0
290
     0
  0
SCALE
  5
59
102
{ACAD_REACTORS
330
47
102
}
330
47
100
AcDbScale
 70
     0
300
1/128" = 1'-0"
140
0.0078125
141
12.0
290
     0
  0
SCALE
  5
5A
102
{ACAD_REACTORS
330
47
102
}
330
47
100
AcDbScale
 70
     0
300
1/64" = 1'-0"
140
0.015625
141
12.0
290
     0
  0
SCALE
  5
5B
102
{ACAD_REACTORS
330
47
102
}
330
47
100
AcDbScale
 70
     0
300
1/32" = 1'-0"
140
0.03125
141
12.0
290
     0
  0
SCALE
  5
5C
102
{ACAD_REACTORS
330
47
102
}
330
47
100
AcDbScale
 70
     0
300
1/16" = 1'-0"
140
0.0625
141
12.0
290
     0
  0
SCALE
  5
5D
102
{ACAD_REACTORS
330
47
102
}
330
47
100
AcDbScale
 70
     0
300
3/32" = 1'-0"
140
0.09375
141
12.0
290
     0
  0
SCALE
  5
5E
102
{ACAD_REACTORS
330
47
102
}
330
47
100
AcDbScale
 70
     0
300
1/8" = 1'-0"
140
0.125
141
12.0
290
     0
  0
SCALE
  5
5F
102
{ACAD_REACTORS
330
47
102
}
330
47
100
AcDbScale
 70
     0
300
3/16" = 1'-0"
140
0.1875
141
12.0
290
     0
  0
SCALE
  5
60
102
{ACAD_REACTORS
330
47
102
}
330
47
100
AcDbScale
 70
     0
300
1/4" = 1'-0"
140
0.25
141
12.0
290
     0
  0
SCALE
  5
61
102
{ACAD_REACTORS
330
47
102
}
330
47
100
AcDbScale
 70
     0
300
3/8" = 1'-0"
140
0.375
141
12.0
290
     0
  0
SCALE
  5
62
102
{ACAD_REACTORS
330
47
102
}
330
47
100
AcDbScale
 70
     0
300
1/2" = 1'-0"
140
0.5
141
12.0
290
     0
  0
SCALE
  5
63
102
{ACAD_REACTORS
330
47
102
}
330
47
100
AcDbScale
 70
     0
300
3/4" = 1'-0"
140
0.75
141
12.0
290
     0
  0
SCALE
  5
64
102
{ACAD_REACTORS
330
47
102
}
330
47
100
AcDbScale
 70
     0
300
1" = 1'-0"
140
1.0
141
12.0
290
     0
  0
SCALE
  5
65
102
{ACAD_REACTORS
330
47
102
}
330
47
100
AcDbScale
 70
     0
300
1-1/2" = 1'-0"
140
1.5
141
12.0
290
     0
  0
SCALE
  5
66
102
{ACAD_REACTORS
330
47
102
}
330
47
100
AcDbScale
 70
     0
300
3" = 1'-0"
140
3.0
141
12.0
290
     0
  0
SCALE
  5
67
102
{ACAD_REACTORS
330
47
102
}
330
47
100
AcDbScale
 70
     0
300
6" = 1'-0"
140
6.0
141
12.0
290
     0
  0
SCALE
  5
68
102
{ACAD_REACTORS
330
47
102
}
330
47
100
AcDbScale
 70
     0
300
1'-0" = 1'-0"
140
12.0
141
12.0
290
     0
  0
ENDSEC
  0
EOF
